スコア::ゆらゆら帝国

スコア::ゆらゆら帝国

ズックにロック

G       Bb        F      C

まっかなそら かぜひとつかみ でっかい雲 飛び散る汗 (2回繰り返し)

忘れた涙と汗〜じゃまな涙は同じコード進行を低音よりでひくのかな?


ゆらゆら帝国で考え中

B    E       A

ジャーン だいたいよるは ひとりで〜 繰り返し

D      B

迷子になった おぼえはない

E       A

でもさいごにとびのった へいわけもないぜー

ボタンがひとつ(なまなまVER)

メインG→B→Em

BメロC→D→G(このとき人指し指を3→2→0フレットへ)→Am→D→G→B→E→C→D


星になれた

イントロ→Bmaj7

メロ→Bmaj7→A#7→A#m7→D#7→G#m7→C#7→F#→F#7

サビ(はねが〜)→Bmaj7→A#7→C#m7→D#7→G#m7→C#7→F#→F#7

サビ(星になれた〜)→Bmaj7→A#7→C#m7→D#7→G#m7→C#7→D#

(だけど今も〜)→G#m7→A#m7→B→C#7sus4→C#7


グレープフルーツちょうだい

ACDC CE♭FE♭ ACDC G

ACDC CE♭FE♭ ACDC G

FGDm FGDm   FGDm E 

ドックンドール

AEC♯mD BmEF♯F♯7

AEC♯mD BmEF♯F♯7

DEC♯mF♯ BmEA(サビ後BmDE)

アーモンドのチョコレート

アーモンドは基本4つですね。

C D# F A#


うそが本当に

C G Am  D7   Dm7  G  C Csus4 C/B

彼の 砂漠の中に そっとやまを つくる

Am D7 F C C/B Am D7 F C

ひとつぶの なみだがうみに  とどくかも とどかないかも


午前3時のファズギター

    • *-----------  1弦
    • 8-----------  2弦
    • 7-----------  3弦
    • 6---------0-  4弦
    • 7-----0-2---  5弦

0-*-0-3-------  6弦


冷たいギフト

F Am Dm G B♭  Dm G7

綺麗な目 人形 何も見ず 君は 諦めてる 既に

  C F Am Dm

遠い昔に郵便で お化けだか幽霊だか

                 G B♭/B♭

なんだかそんなような物から送られてきた しっぽ

   Dm G7 C

尖った牙 あとは銀色の角

F/F/A7/A7/Dm/DM/G/G/B♭/B♭/Dm/Dm/G7/G7/C/C/

B♭/B♭/D/D/B♭/B♭/D/D/B♭/B♭/D/D/B♭/B♭/D/D/


からっぽの街

前奏

Am

灰色のコンクリート、無常に響く足音

Bm F#m

あー、俺が遠ざかっていく〜

C#m G#m

無用になたっていうことか〜

D E

黒い車には〜町の葬儀屋が〜砂埃巻上げ仕事を探してる〜

F#m D E F#m


バンドをやってる友達

E F#m B E

A G#m F#m G#m

E F#m B E

C#m F#m B E

サビ

F#m B E


無い!!

無い! −ようつべライブ版( ファイル:_OdaW1qTKDA )ー

:前奏

(Eはローポジ、Aは5フレットの方)

E E E A A A E E E A A A

:前奏〜(単音のところ)

-------------------    --------
-------------------    --------
9-9---------9------    9-9-----
---6-69-9----696---    ---6-676
---------7-7----7-7    --------
------------------- ×8 --------

左側が4/4 × 4 より長いので、

あの独特のずれ(気持ちよさ、かっこよさ)が生じます。

歌に入ると、左側を頑張って続けます。

ソロはDELAY効かせてセンスでいいんだと思います。

長さは、感覚で決めてください。

「最終回の〜」は E A のみみたいです。

最後のソロも逝くまで続けりゃOKだと思います。

太陽のうそつき

太陽のうそつき −細かいところは目をつぶって下さいver−

Gt1:パワーコードでいいかも知れません。

Gt2:基本的に1〜3弦しか使用しないと思います。

<前奏>

Gt1

FG FG B♭C B♭C FG FG B♭C B♭ C

Gt2

                                                    • |-13-13-13-13|
                                                    • |- -- -- -- -|
                                                    • |- -- -- -- -|
                                                    • |- -- -- -- -|
                                                    • |- -- -- -- -|
                                                    • |- -- -- -- -|

Gt1

F G G B♭ C B♭C ×3

Gt2

1|-10-10-8-10--------|----------------|

2|- 8- 8-6- 8--------|-8-8-7-8--------|

3|- -- ---- ---------|-8-8-7-8--------| ×3


Gt1

F G G B♭C B♭C

Gt2

1|-10-10-8-10--------|--5-6-8-|

2|- 8- 8-6- 8--------|-8-8-8-8|

3|- -- ---- ---------|--------|

<Aメロ>

Gt1

FG FG B♭C B♭C FG FG B♭C B♭ C ×3

Gt2

1| - - - - - 6 6 10 6 8 - - 8 - - - |

2| - - - 8 8 - - - - 8 - - 8 - - - |

3| - 7 7 - - - - - - - - - - - - - | ×3


Gt1 (F*はハイポジで)

D D# D# F* F* D F

Gt2

1| - 11 - - - 13 - -| 10 - - 10 |

2| 8 - - 8 10 - - 10| 10 - - 10 |


※Aメロ2回目Gt1は最後の F が D です。

<その他>

「さようなら みなさん・・・」のコード

 D# F* G F

「太陽のうっそっつっきぃ〜・・・」

 C D

夜行性の生き物3匹

夜行性の生き物3匹 ーそれなりに参考にしてくださいverー

私は上3本(456弦、または345弦)で弾きます

・「頭上で〜」

  C G# A#

Cの時

4|10 8|

5|10 8|

6| 8 8| ×4


・「3分間の〜」

  D# C

D#のとき

4|8 6|

5|8 6|

6|6 6| ×4

・「あぁぁい〜」

  C(上記と同じく)

・「交差点〜」

  頭上で〜 と一緒

・「3分間の〜」

  上記と同じ

・ソロ

 FUZZで感覚で(ごめんなさい)


昆虫ロック

C#m7→E→F#の循環で、本当はいろんなこといつも考えてたのに〜のとこはC#m7→E→F#→E→G#ですね、多分。

ズックにロック

G→B♭→F→Cの繰り返しだと思いますよ。

|3---1---1---3---|

|3---3---1---5---|

|4---3---2---5---|

|5---3---3---5---| 

|5---1---3---3---|

|3---1---1---3---|

誰だっけ

5 6

5 6

6 7

7 8

7 8

5 6

と、

3 4

3 4

4 5

5 6

5 6

3 4

の繰り返しだと思います。

今手元にギターがないのでオチ前のリフの音がどこだったか忘れましたが、僕はこんな感じでやってました。

パッパッ「ツ」タララ

の「ツ」を、高音弦側でカッティングしてやると良いかと思います。


恋がしたい

C→Am→Dm→Gですね


すべるバー

|---------------------|   

|------------7-----9--|   

|------2-----7--9--9--|   

|------2-----7--9-----|   

|--2---0--------------| イントロ

|--0-3----------------| 

|-------------------|   

|-------------------|   

|-------------------|  ニュアンスは自分で! 

|----------2--------|   

|--2-------0--------|   

|--0--3--0----------| 


Artist yayuyo

コードが一つ50円で売ってるぽい

counter